※上記の広告は60日以上更新のないWIKIに表示されています。更新することで広告が下部へ移動します。

 MAIN: (Wow Thats Tough) 
G:-------------------------------------------- 
D:-------------------------------------------- 
A:-----------7-------------7-------------7---- 
E:--0--0-0-3-------0-0-0-3-------0-0-0-3------ 

 Bridge: 

 "Pick up the pieces ..... " 
G:-------------------------------------------------------- 
D:-------------------3-3-4-4-5-------------------7-7-5---- 
A:-----2-2-3-3-4-4-5---------------4-4-5-5-6-6-7-------7-- 
E:-3-3-------------------------5-5------------------------ 

 Chorus Loop: (Yes it's the same as above, just up a string) 

 "Voodoo Child ... Yeah                      Lord Knows..." 
G:-------------------3-3-4-4-5-------------------7-7-5---- 
D:-----2-2-3-3-4-4-5---------------4-4-5-5-6-6-7-------7-- 
A:-3-3-------------------------5-5------------------------ 
E:-------------------------------------------------------- 


The Solo is pretty much the same as the main. 
Play around abit on your E string once and awhile in there. 
Below is a good example. But stay mostly with your open. 
G:--------------------------------------------------------- 
D:--------------------------------------------------------- 
A:-------------7------5---------------------------7-------- 
E:-0-0-0-0-3-0----------7-6-5-5-3-3-----0-0-0-0-3----------