※上記の広告は60日以上更新のないWIKIに表示されています。更新することで広告が下部へ移動します。

Guitar TAB

 

 

BASS TAB

Song:Are You Gonna Be My Girl
Band:Jet
Album:Get Born

Intro
G|--------------------------------------------------------------------|
D|--------------------------------------------------------------------|
A|----------------3-------------------------------3---3-5--5-3--------|
E|--5-5-5--5-5-035--5-5-5--5-5-0303-5-5-5--5-5-035--5---------5-5-3---|

G|--------------------------------------------------------------------|
D|--------------------------------------------------------------------|
A|----------------3---------------------------------------------------|
E|--5-5-5--5-5-035--5-5-5--5-5-0303-5-5-5--5-5-0303-5-----------------|

Verse
G|--------------------------------------------------------------------|
D|--------------------------------------------------------------------|
A|----------------3-------------------------------3---3-5--5-3--------|
E|--5-5-5--5-5-035--5-5-5--5-5-0303-5-5-5--5-5-035--5---------5-5-3---|

G|------------------- r ------------------------------|
D|------------------- e ------------------------------|
A|------------------- s --------------------------3---|
E|--5---------------- t ------------5-5-5--5-5-035----|

G|--------- r ------------------------|
D|--------- e ------------------------|
A|--------- s --------------------3---|
E|--5------ t ------5-5-5--5-5-035----|

G|---------------- r -------------------------------------------------|
D|---------------- e -------------------------------------------------|
A|---------------- s -----------------------------3---3-5--5-3--------|
E|--5------------- t --------30-3-4-5-5-5--5-5-035--5---------5-5-3---|

G|--------------------|
D|--------------------|
A|--5--5--5---3-------|
E|--------------3-----| X4

Chorus
G|---------------------------------------------------------------------|
D|--------------------------------22----------7---------/7-57-5--5-7---|
A|----------------223-3-3--3-32233--5-5-5--5/9-9-7-5-----------7-------|
E|--5-5-5--5-55555-----------------------------------5-5---------------| X2

G|------------------------------------|
D|----------------5-5~----------------|
A|--7--7--7---7777--------------------|
E|------------------------------------|

Bridge
G|---------|
D|-----5---|
A|--57-----|
E|---------|

G|--------------------------------------------------------------------|
D|--------------------------------------------------------------------|
A|------------------3-3-3--3-33333335-5-5--5-5555555------------------|
E|--5-5-5--5-5555555--------------------------------5-5-5--5-5003344--|

G|--------------------------------------------------------------------|
D|-----------------------------------------------------/7-57-5--5-7---|
A|------------------3-3-3--3-33333335-5-5--5-5555555----------7-------|
E|--5-5-5--5-5555555--------------------------------5-5---------------|

Outro
G|---------------------------------------------------------------------|
D|--------------------------------22----------7---------/7-57-5--5-7---|
A|----------------223-3-3--3-32233--5-5-5--5/9-9-7-5-----------7-------|
E|--5-5-5--5-55555-----------------------------------5-5---------------| X2

G|-------------------------------------------------------|
D|--------------------------------22----------7----------|
A|----------------223-3-3--3-32233--5-5-5--5/9-9-7-5-----|
E|--5-5-5--5-55555---------------------------------------|

G|------------------------------------|
D|--7--7--7---5555--------------------|
A|----------------5-5~----------------|
E|------------------------------------|

Playing Order

Intro
Verse
Chorus
Verse
Chorus
Bridge
Outro

thank BassRebelMakinClocks and JAMESR for correction!!